Gitarren- und Bass-Tabs

Leider sind bei weitem nicht alle Songs vorhanden und zum Teil sind die vorhandenen unvollständig. Ich spiele selbst nicht Gitarre und kann nicht beurteilen, wie gut oder richtig die Tabs sind, die mir gemailed werden. Wenn Du die Gitarren- oder die Basstabs ergänzen, oder wenn Du an den vorhadenen Tabs etwas ausbessern kannst, melde Dich bitte bei mir.


Ich-Maschine (1992)
  • Ghettowelt
  • Von der Unmöglichkeit "nein" zu sagen, ohne sich umzubringen (Bass-Tab)
  • Zeittotschläger (Bass-Tab)
  • Laß uns nicht von Sex reden (Bass-Tab)
  • Nichtschwimmer / nachGeburt (Bass-Tab)
  • Penismonolog (Bass-Tab)

    L'Etat Et Moi (1994)
  • Verstärker
  • You make me

    Old Nobody (1999)
  • Tausend Tränen Tief
  • The Lord of Song
  • Kommst Du mit in den Alltag
  • Ein Lied von zwei Menschen (Bass-Tab)
  • So lang es Liebe gibt

    Testament der Angst (2001)
  • Graue Wolken
  • Ein privates Problem
  • Nowhere bei mir
  • Die Diktatur der Angepassten
  • Der Wind
  • Wellen der Liebe (NEU)

    Jenseits von Jedem (2003)
  • In der Wirklichkeit (NEU)
  • Neuer Morgen (NEU)
  • Der Sturm (NEU)
  • Wir sind frei
  • Die Welt ist schön (NEU)







    Ghettowelt (Bass-Tab):
    (von Sascha)

    Intro:
    G ---------11--------------11------
    D --9--------------9---------------
    A ---------------------------------
    E ---------------------------------
    
    1. Strophe (beginnt wenn der Gesang einsetzt):
    G --------------
    D --------------
    A ------2--2-2-2
    E --0-3--------- (9x)
    
    zwischen Strophe 1 und 2: leere E-Saite spielen.
    2. Strophe:
    G --------------
    D --------------
    A ------2--2-2-2
    E --0-3--------- (7x)
    
    nach der 2 Strophe:
    G ---------------------------------------------
    D --------------9--9-9-9-----------------------
    A --7-7--10-10------------7-7--10-10--9--9-9-9-
    E --------------------------------------------- (3x)
    
    G -------------------------
    D --------------9--11-9-9--
    A --7-7--10-10-------------
    E ------------------------- (1x)
    
    G -----------------------
    D -----------------------
    A --7-7--10-10--9--9-9-9-
    E ----------------------- (4x)
    
    Beim letzten Mal den letzten Ton aushalten, bis der Gesang wieder einsetzt.

    3.Strophe:
    G --------------
    D --------------
    A ------2--2-2-2
    E --0-3--------- (10x)
    
    nach der 3. Strophe:
    G ---------------------------------------------
    D --------------9--9-9-9-----------------------
    A --7-7--10-10------------7-7--10-10--9--9-9-9-
    E --------------------------------------------- (3x)
    
    G -------------------------
    D --------------9--11-9-9--
    A --7-7--10-10-------------
    E ------------------------- (1x)
    
    G -----------------------
    D -----------------------
    A --7-7--10-10--9--9-9-9-
    E ----------------------- (3x)
    
    G --------
    D ------9-
    A -7-10---
    E --------
    

    Zurück


    Von der Unmöglichkeit "nein" zu sagen, ohne sich umzubringen (Bass-Tab):
    (von Sascha)

    Strophe:
    G:-----------------------------------------------------
    D:-----------------------------------------------------
    A:--7--7----7--7--7----7--3--3----3--3--3----3---------
    E:-----------------------------------------------------
    

    Zurück


    Zeittotschläger (Bass-Tab):
    (von Sascha)

    Anfang:
    G:--------------------------------------------------------------------
    D:----------------------------------------10--------------------------
    A:--10----------------------------------------------------------------
    E:--------------------------------------------------------------------
    
    G:--------------------------------------------------------------------
    D:----------------------------------------10--------------------------
    A:--10------------------------------10--------------------------------
    E:--------------------------------------------------------------------
    
    Strophe:
    G:--------------------------------------5--5--5-5-5-5--5--5--5-5-5-5-
    D:--5--5--5-5-5-5--5--5--5-5-5-5-------------------------------------
    A:-------------------------------------------------------------------
    E:-------------------------------------------------------------------
    
    G:--------------------------------------5--5--5-5-5--3--3--3--3-3-3-3
    D:--5--5--5-5-5-5--5--5--5-5-5-5-------------------------------------
    A:-------------------------------------------------------------------
    E:-------------------------------------------------------------------
    
    Refrain:
    G:------------------5--5--5--5-5-5--4--3--3-3-3--3--3--3-3-3--------
    D:--2--2--2-2-2-----------------------------------------------------
    A:------------------------------------------------------------------
    E:------------------------------------------------------------------
    
    Basssolo nach dem 2. Refrain:
    G:--2--4--2-4--2--4--2--4-2------------------------------
    D:-------------------------------------------------------
    A:-------------------------------------------------------
    E:-------------------------------------------------------
    
    (wird dreimal wiederholt)
    Dann geht es wie folgt weiter:
    G:--5---5--5-5--2--2--2--2-2-2-2--5--5--5-5--5--5--5-5-5-...(?)
    D:-----------------------------------------------------------------
    A:-----------------------------------------------------------------
    E:-----------------------------------------------------------------
    

    Zurück


    Laß uns nicht von Sex reden (Bass-Tab):
    (von Sascha)

    Strophe:

    G:------------------------------------------------------------------
    D:--4-4-4-6-6-6-4-4-2-2-2-2-2-2-2-2-0-0-0-0-0-0-0-0-2-2-2-2-2-2-2-2-
    A:------------------------------------------------------------------
    E:------------------------------------------------------------------
    
    Refrain:

    G:------------------------------------------------------------------
    D:----------5-5-5-4-4--------4-4-4-2-2--2-2-2-2-2-2-2-2-2-2-2-2-2-2-
    A:--3-3-3--------------3-3-3----------------------------------------
    E:------------------------------------------------------------------
    

    Zurück


    Nichtschwimmer / nachGeburt (Bass-Tab):
    (von Sascha)

    Strophe:

    G:-------------------------------------------------
    D:--5-5-5--4-4-4--3-----3-3-3-3-3-3-3-3------------
    A:-------------------------------------------------
    E: ------------------------------------------------
    

    Zurück


    Penismonolog (Bass-Tab):
    (von Sascha)

    ca. 3 Minuten lang nur ein Ton (Lauf 1):

    G:-----------------------------------------------------------------
    D:-----------------------------------------------------------------
    A:--7-7-7-7-7-7-7-7-7-7-7-7-7-7-7-7-7-7-7-7-7-7-7-7-7-7-7-7-7-7-7-7
    E:-----------------------------------------------------------------
    
    Beim Refrain allerdings mit etwas anderem Anschlag als bei den Strophen. Zwischen dem 2. Refrain und der 3. Strophe (auf der CD bei 2:44) geht der Bass in folgenden Lauf über (Lauf2):

    G:-------------------------------------------------------------------
    D:-------------------------------------------------------------------
    A:--7-7-7-7-7-7-7-7-7-7-7-7-7-7-7-7-4-4-4-4-4-4-4-4-4-4-4-4-4-4-4-4--
    E:-------------------------------------------------------------------
    
    G:------------------------------------------------------------------
    D:--5-5-5-5-5-5-5-5-5-5-5-5-5-5-5-5-7-7-7-7-7-7-7-7-7-7-7-7-7-7-7-7-
    A:------------------------------------------------------------------
    E:------------------------------------------------------------------
    
    Dieser Lauf wird zunächst zweimal gespielt. Mit dem Beginn der dritten Strophe setzt wieder Lauf 1 ein. Mitte der Strophe (auf der CD bei 3:24) kommt Lauf 2, der erneut zweimal gespielt wird. Beim folgenden Zwischenspiel ohne Schlagzeug wird wieder Lauf 1, danach bis zum Ende des Liedes Lauf 2 gespielt.

    Zurück


    Verstärker
    (Von Sascha)

    Das gesamte Lied beruht auf D.
    Die zweite Gitarre spielt auch ausschließlich diesen Ton in stakkato-artigem Anschlag (am besten als Powerchord: 10-12-12-11-10-10 oder X-5-7-7-6-5).
    Der Bass spielt die ersten ca. dreieinhalb Minuten des Stücks ebenfalls nur D. Später spielt er folgendes:
    G -----------------------(7)---
    D --9------7----9-7-5----------
    A -----------------------------
    E -----------------------------
    
    Die erste Gitarre (Distelmeyer) spielt 4 Variationen des Tones D in immer wiederkehrender Abfolge, die man wie folgt spielen kann (Jochen spielt sie zwar anders, es klingt aber sehr ähnlich):
    X-0-0-2-3-2    X-0-0-2-2-2    X-0-0-2-0-2    X-0-0-0-3-2
    Beim Refrain muss man einfach die Gitarren ordentlich rückkoppeln lassen.

    Und so sieht Mathias´Verstärker-Tab aus:
    exxxxxxxxxxxxxxxxxxxxxxxxxxxxxxxxxxxxxxxxxxxxxxxx
    h-----6----3----1--------------------------------
    g-----9----6----4-------------------------------
    d-----7----4----2-------------------------------
    a-----8----5----3-----2--------------------------
    exxxxxxxxxxxxxxxxxxxxx3--------------------------

    Zurück


    You make me
    (Tabbed by Rosskopf / Herion)

    Strophe: (Kapo 3)
    Teil 1:
    E|------0---0---0--|-----0---0---0---|--------0^--0-----5-0-|----------0------|
    H|------0---0---0--|-----0---0---0---|--------0^--0-----0-0-|------7---7---0--|
    G|-----------------|-----------------|----------------------|------9-------7--|
    D|------5-------5--|---5-------5-----|--------5^-5~-7^--7---|-----------------|
    A|----5-----5------|-7------9--------|-----5^-5^-5~-7^--7---|-7-9----9---9----|
    e|--0--------------|----------------5|--0--------0----------|----------------0|
    
    Teil 2:
    E|-----------------|-----------------|----------------------|---------0-------|
    H|-----------------|-----------------|----------------------|-------7^7-7^7---|
    G|-----------------|-----------------|----------------------|-----------------|
    D|-----------------|-----------------|----------------------|-------------9-7-|
    A|-----------------|-----------------|----------------------|-7-9^--9---------|
    e|-----------------|-----------------|----------------------|-----------------|
    
    Refrain:
    E|-----------------|-----------------|----------------------|-----------------|
    H|-----------------|-----------------|----------------------|-----------------|
    G|-------5--5-5----|--------4---4---4|----------------------|-----------------|
    D|-------5--5-5----|--------5---5---5|-----7---7---7-7^-----|-10----10--10--10|
    A|---5-------------|----5------------|--5--5---5---5--------|-------12--12--12|
    e|-0------0--0-----|-0---------0--0--|0------0---0----------|-----11--11--11--|
    
    Wie man es spielt:
  • ^ = klingen lassen
  • ~ = Slide
  • Die ersten drei Takte von Teil 2 sind identisch mit denen des Teil 1.
  • Ein bisschen kniffelig wird es für die Greifhand in Takt 2 und in Takt 4 der Strophe des ersten Teils. In Takt zwei muss man etwas überstrecken: Zeigefinger (1) auf D-Seite im 5. Bund, Ringfinger (3) auf A-Seite im 7. Bund und kleiner Finger (4) auf A-Seite im 9. Bund.
  • Der vierte Takt verlangt der Greifhand ebenfalls was ab. (1) auf A-S. im 7. B., (2) auf H-S. im 7. B., ( 3) auf A-S. im 9. B. und (4) auf G-S. im 9.B.
    You Make me
    (von Robin)
    
    E------------------3--------------3-------------2-----3-2-0---------------------------------2-----3-2-0-------
    H------------------3------3-------3-------------0-------------3-----------3-----3----3------0-------------3---
    G-------------0-------0------0--------------0------0----------------------0-----0h3--3----0---0---------------
    D-----------------------------------------------------------------------0---0----------------------------------
    A--------------------------------------------------------------------------------------------------------------
    E---------3-----------------------------0-----------------------------3-----------------0----------------------
    (mehmals für die Strophen wiederholen) 

    Zurück


    Tausend Tränen Tief
    (von Robin)

    (Riff während der Strophen)
    E------------------------------------- 3 --------------3---------
    H-------------3-3-----3---3------------3---------3-----3---------
    G-------------0-0h2---2---0------------------0-------------------   repeat
    D----------0----------------------1------------------------------
    A--------------------------------------------3-------------------
    E-----3----------------------------------------------------------
    
    interlude
    
    E--------------3---------3---------------3------3-------------------3------3-----------------3--------3-----
    H--------------3---------3---------------3------3-------------------3------3-----------------3--------3-----
    G-----------0---------0--------0-----0-------0-------0----------0-------0-------0-------0---------0-------0-
    D---------0--------0---------0-----1-------1-------1--------1s2-------2------2------2s3-------3---------3---
    A-----------------------------------------------------------------------------------------------------------
    E------------------------------------------------------------------------------------------------------------
    
    (Das s bedeutet slide - kann man auch weglassen, klingt aber besser)

    Zurück


    The Lord of Song
    (von Robin)
    D    Hm    B    A
    
    D
    Ich bin das Wort
    hm
    und so schreit' ich zur Tat
    B
    Sounds auf der Spur
    
    schweben mir vor
    A
    ich komme in Fahrt
    
    aus schwarzen Wolken
    stürzen Schatten ins Weiß
    stehen im Freien
    und dreh'n sich im Kreis
    
    usw.

    Zurück


    Kommst Du mit in den Alltag
    (Von Sascha & Judith)

    Vereinfacht kann man das Lied wie folgt spielen:
    Strophe: D/G
    Refain: e/G/e/A
    Die Strophe kann man auch innerhalb der D-Tonleiter auf der Gitarre zupfen:
    G -----------------------------------------------
    D ------12-12-11-9-------9-----------------------
    A -----------------12-12---12-10-9----9-(h)10-9--
    E --10-----------------------------12------------
    
    
    Kommst du mit in den Alltag
    (von Robin)
    
    C    C*  F   G   oder    G
    0    0   1   3           3
    1    0   1   3           0
    0    0   2   4           0
    2    2   3   5           0
    3    3   3   5           2
    0    0   1   3           3
    
    
    Intro
    C                    C*                   F                G
    
    
    C                   C*    F     G
    Auf einmal hasst du gesagt, du verlässt diese Stadt;
    C         C*    F       G
    Das Leben hier, hat dich nur müde gemacht;
    C                C*    F          G
    Du warst noch nie da, wo deine Träume sind ;
    C                                   C*           F         G
    und du weißt auch gar nicht wo das ist, doch du weißt hier ist es nicht:
    
    F                            G
    Ist das alles was das Leben fragt?
    F                                 G
    Ist das alles was das Leben fragt? Kommst du mit in den Alltag!!!
    
    
    C                 C*             F            G
    
    (usw)
    

    Zurück


    Ein Lied von zwei Menschen (Bass-Tab)
    (Von Sascha)

    G ----------------------------------
    D --0--0-0--7-7-7-7-9-9-9-9-4-4-2-2-
    A ----------------------------------
    E ----------------------------------
    
    Ein Lied von zwei Menschen (Gitarren-Tab)
    (von Robin)
    
    Standard Riff: D Power Akkord
    
    E---------------------
    H---------------------
    G-----7-7-6-6h7-------
    D-----7-7-7-7---------
    A-----5-5-5-5---------
    E---------------------
    
    
    D
    Meine Liebe zu Dir
    
    mir fehlen die Worte dafür
                       F
    wenn ich, wie jetzt
           G                D
    nur in Gedanken bei Dir bin
    D
    wenn ich den lieben langen Tag
    
    es still in meinem Herzen trag'
        F
    wie gut es ist,
        G               D
    daß wir zusammen sind
    G                      gm
    Manchmal kommt es mir vor
    D                      hm
    als könnte nichts uns beide trennen
    G                     gm
    dann stehst Du vor mir
    D                   hm
    als würden wir uns ewig kennen
    
    G        D
    Du und Ich
    

    Zurück


    So lang es Liebe gibt
    (Von Judith)

    Es (e) führt kein Weg zurück, die Tage werden (C) enger (H7)
    Ein (e) Traum, ein Kuss, ein Glück
    (C) Hier bei dir zu (H7) sein
    (C) Und nicht für mich (H7) allein
    (C) So lang es (H7) Liebe (e) gibt


    Zurück


    Graue Wolken
    (Von Dörte)
    B                               g
    Wo kommen all die grauen Wolken her?
    Gis
    Ich schau nach draußen auf den Tag,
       Dis
    es regnet und ich kann nicht mehr
    B                       g
    Wo ist der blaue Himmel hin?
    Gis
    Ich weiß nicht, warum ich lebe,
    Dis
    nur, daß ich am Leben bin
    Fis                              B
    Dann steh ich auf und gehe unter Menschen
    Fis                          B
    und frage mich, was kann ich tun?
    Fis
    ich will sie hassen
    g
    und kann's nicht lassen
    Gis
    in allem, was sie ausmacht, auch ein Stück von mir zu sehen
    ...
    
    Zurück


    Ein Privates Problem
    (von Robin)
    Tuning:  DADGHE  (Wichtig: die dicke E-Saite auf D stimmen  und die A-Saite auf G!)
    
    Ein privates Problem.......................                                            Was spricht dafür..................
    E--------------------------------------------------I---------------------------------------------------------------------------------------
    H-----------------3-2----2-3-2--------------------3I------------1---3--1--0--0h1p0------0h1-------------1--3--1-0----------1--0------------
    G-----------------------2--------2-----2-----2h4---I----------0---0-------------------0-----0---------0-------------------0-0------2--0----
    D------------------------------------4----4--------I---------------------------------------------------------------------------------------
    G--------------------------------------------------I--------------------------------------------------------------------0------------------
    D----------0---------------------------------------I-------3----------------------------------------3--------------------------------------
    
    
    
    Und man fragt sich.......................................................... ..............was ist los mit mir.
    E-----------2--------------2-----------2-------------2------------3--------------3-----------3------------3----
    H-----------2--------------2-----------2-------------2------------3--------------3-----------3------------3----
    G-------2--------------2-----------2--------------2-----------0--------------0--------------0----------0-------
    D--------------------------------------------------------------------------------------------------------------
    G--------------------------------------------------------------------------------------------------------------
    D--4---------------4-----------4---------------4-------------3-------------3------------3------------3---------
    
    
    Zurück


    Nowhere bei mir
    (Von Dörte)

    fis Cis A H D
    Es sind nur diese fünf Akkorde. Sie werden ständig in der gleichen Reihenfolge durchgespielt.


    Zurück


    Die Diktatur der Angepaßten
    (von Robin)

    intro:
    
    git.1 (piano arranged for guit.)
    
    (2x spielen FÜR intro) - ab Dann zusammen mit git.2
    
    E------------------I-
    H------------------I-
    G------9----12-----I-
    D------9-10-12-10--I-
    A------7-10-10-10--I-
    E--------8-----8---I-
    
    also:  E  C  G  E
    
    git.2
    
    E----7-7-7-7-7-7-7-7-7-7-7-7-7-7-7-7-7-7--I-
    H----7-7-7-7-7-7-7-7-7-7-7-7-8-8-8-8-8-7--I-
    G----9-9-9-9-9-9-9-9-9-9-9-9-9-9-9-9-9-9--I-
    D----9-9-9-9-9-9-9-9-9-9-9-9-9-9-9-9-9-9--I-
    A----7-7-7-7-7-7-7-7-7-7-7-7-7-7-7-7-7-7--I-
    E-----------------------------------------I-
    
    vers:
    
    -Alle Verse/strophen spielen git.1 und git2. zusammen, wie im intro!
    
    
    ref: git.1
    
         Ihr habt...     Es wir immer...  Gebt endlich auf- Es ist vorbei!
    E---4-4-4-4-4-4-4-4--4-4-4-4-4-4-4-4--5-5-5-5-5-5-5-5-5-5-5-5-5-5-5-5--I-
    H---5-5-5-5-5-5-5-5--4-4-4-4-4-4-4-4--5-5-5-5-5-5-5-5-5-5-5-5-5-5-5-5--I-
    G---6-6-6-6-6-6-6-6--4-4-4-4-4-4-4-4--6-6-6-6-6-6-6-6-6-6-6-6-6-6-6-6--I-
    D---6-6-6-6-6-6-6-6--6-6-6-6-6-6-6-6--7-7-7-7-7-7-7-7-7-7-7-7-7-7-7-7--I-
    A---4-4-4-4-4-4-4-4--4-6-6-6-6-6-6-6--7-7-7-7-7-7-7-7-7-7-7-7-7-7-7-7--I-
    E--------------------4-4-4-4-4-4-4-4--5-5-5-5-5-5-5-5-5-5-5-5-5-5-5-5--I-
    
    also:  c#m           g#m              A
    

    Zurück


    Der Wind
    (von Robin)

    Der Wind (Em, C-dur, H7)
    
    Em  (repeat)
     Ein wind weht um das Haus......
     E------0-------0---------0-------0------------
     H------0-------0---------0-------0------------
     G----0-------0-----0---0------0--------0------
     D---------------------------------------------
     A--------------------------------------------
     E--0------0-----0-----0-----0-------0---------
    
     Em
     Wach ich aus träumen aus ................
     E------0-------0---------0-------0------------
     H------0-------0---------0-------0------------
     G----0-------0-----0---0------0--------0------
     D---------------------------------------------
     A---------------------------------------------
     E--0------0-----0-----0-----0-------0---------
     Em
     Mein Kopf ist schwer........
     E------0-------0---------0-------0------------
     H------0-------0---------0-------0------------
     G----0-------0-----0---0------0--------0------
     D---------------------------------------------
     A---------------------------------------------
     E--0------0-----0-----0-----0-------0---------
    
     C H7 Em
     Ich will zu dir zurück  und find den Weg nich mehr.
     E------0-------0--------------2--------2---------------0-------0-----
     H------1-------1--------------0--------0---------------0-------0-----
     G----0-------0------1-------2--------2------2------0--------0--------
     D--------------------------------------------------------------------
     A--3-------3------3-----2--------2--------2--------------------------
     E------------------------------------------------0--------0----------
    
    
     refrain:
    
     C 					Em
     Und Draußen weht der Wind   und immer wieder,
    
    E------0-------0-------------0-------0---------0-------0-------------0-------0-------
    H------1-------1-------------1-------1---------0-------0-------------0-------0-------
    G----0-------0------1-----1--------1--------0-------0-------0-----0-------0--------0-
    D------------------------------------------------------------------------------------
    A--3-------3------3-----3-------3----------------------------------------------------
    E----------------------------------------0--------0-------0----0--------0--------0---
    
     C 					Em
     Wach ich aus träumen aus und geh umher.
    
    E------0-------0-------------0-------0---------0-------0-------------0-------0-------
    H------1-------1-------------1-------1---------0-------0-------------0-------0-------
    G----0-------0------0-----0--------0--------0-------0-------0-----0-------0--------0-
    D------------------------------------------------------------------------------------
    A--3-------3------3-----3-------3----------------------------------------------------
    E----------------------------------------0--------0-------0----0--------0--------0---
    
     C                             Em    		    C               Em
     Ich sing beim gehen vor mich hin,    damit ich weiß dass ich noch bin,
    
    E------0-------0---------------0-------0-------------0-------0---------0-----0--------
    H------1-------1---------------0-------0-------------1-------1---------0-----0--------
    G----0-------0------0------0-------0-------0-----0---------0-------0-------0------0---
    D-------------------------------------------------------------------------------------
    A--3-------3------3----------------------------3-------3------------------------------
    E-----------------------0--------0-------0----------------------0--------0------0-----
    
     C 							Em
     Und der Wind der weht -                               und ich sing seine Lieder.
    
    E------0-------0-------------0-------0-------------0-------0-------------0-------0-----------0-----0--------
    H------1-------1-------------1-------1-------------1-------1-------------0-------0-----------0-----0--------
    G----0-------0------0-----0--------0------0------0-------0-------0-----0-------0-----0---0-------0------0---
    D-----------------------------------------------------------------------------------------------------------
    A--3-------3------3-----3-------3-------3------3--------3-----3---------------------------------------------
    E--------------------------------------------------------------------0-------0-----0---0-------0-----0------
    
    
     Bass tab:
    
     VERS:
     G--------------------------
     D--------------------------
     A-----7-------7--------7---
     E------7--------7--7----7--
    
     Ich will zu dir zurück......
     G---------------------------
     D---------------------------
     A------------------7-7-7-7--
     E-8-8-8-8-7-7-7-7-7---------
    
     refrain:
     G---------------------------------
     D---------------------------------
     A-----------------7-7-7-7-7-7-7---
     E---8-8-8-8-8-8-8-----------------
    
     G------------------------------------
     D------------------------------------
     A------7-----7---------------7-7-7-7-
     E---8-----8-----8--8--8--8--8--------
    

    Zurück


    Wellen der Liebe
    (transcribed by Nils Heuermann (mail@oemmes.net))
    (Capo im 1. Bund)
    
    RIFF für Strophe und Instrumental-Teile:
    
       A                          D    D7M  D           A
    |--0----0----0--0--0--0--|----2----2----2--2--2--|--0----0----0--0--0--0--|
    |--2----2----2--2--2--2--|----3----2----3--3--3--|--2----2----2--2--2--2--|
    |--2----2----2--2--2--2--|----2----2----2--2--2--|--2----2----2--2--2--2--|
    |--2----2----2--2--2--2--|----0----0----0--0--0--|--2----2----2--2--2--2--|
    |--0----0----0--0--0--0--|-----------------------|--0----0----0--0--0--0--|
    |------------------------|-----------------------|------------------------|
    
    
         D    Dsus2      D     A                          D    D7M        D
    |----2----0----0--0--2--|--0----0----0--0--0--0--|----2----2----2--2--2--|
    |----3----3----3--3--3--|--2----2----2--2--2--2--|----3----2----2--2--3--|
    |----2----2----2--2--2--|--2----2----2--2--2--2--|----2----2----2--2--2--|
    |----0----0----0--0--0--|--2----2----2--2--2--2--|----0----0----0--0--0--|
    |-----------------------|--0----0----0--0--0--0--|-----------------------|
    |-----------------------|------------------------|-----------------------|
    
    
       E                  D       D7M  D7Msus2    D
    |--0----0----0--0--0--2--|----2----0----0--0--2--|
    |--0----0----0--0--0--3--|----2----2----2--2--3--|
    |--1----1----1--1--1--2--|----2----2----2--2--2--|
    |--2----2----2--2--2--0--|----0----0----0--0--0--|
    |--2----2----2--2--2-----|-----------------------|
    |--0----0----0--0--0-----|-----------------------|
    
    
    Die einzelnen AKKORD-FOLGEN des Liedes:
    
    Intro:
    | A       | D       | A       | Dsus2   |
    | A       | D7M     | E       | D7Msus2 |
    
    Strophe:
    3x Intro
    
    Bridge:
    | G       | G       | fis     | fis     |
    | G       | G       | fis     | A6      |
    
    Refrain:
    | A       | D       | E       | D       | 3x
    | F       | E       |
    
    
    ABLAUF:
    Intro
      Strophe
        Bridge
          Refrain
    Intro
      Strophe
        Bridge
          Refrain
    2x Intro
      Strophe
    2x Intro
    
    Kann gut sein, dass etwas nicht stimmt... Korrekturen gerne per Mail an mich.
    transcribed by Nils Heuermann (mail@oemmes.net)

    Zurück


    In der Wirklichkeit
    (von Nils)

    (Capo im 3. Bund)
    
    e
                           e
    Du hast bis jetzt noch nicht kapiert
    was um Dich rum geschehen ist
    dass deine Welt den Glanz verliert
    und nichts mehr so wie vorher ist
                      F
    Hast immer nur an dich gedacht
                          e
    geglaubt, dass dir so nichts passiert
                     C              h
    du hast es dir bequem gemacht
                   C               h
    plötzlich bist Du aufgewacht
                   e
    In der Wirklichkeit
    
                       e
    Du hast dich gerne weggeduckt
    wenn's wegen dir Probleme gab
    ansonsten jeden Scheiß geschluckt
    bei andern nicht an Hohn gespart
                      F
    Du bist gut damit durchgekommen
                            e
    brav mitgespielt, nicht aufgemuckt
                        C                   h
    und mit der Strömung mitgeschwommen
                  C                   h
    jetzt bist du endlich angekommen
                   e
    In der Wirklichkeit
    
    e
    
                            e
    Du fühlst dich leer und ausgebrannt
    fragst dich, wo deine Freunde sind
    sie sind vor dir davongerannt
    weil jeder deine Launen kennt
                         F
    Nie hast du dich wem anvertraut
                     e
    dich nie zu jemandem bekannt
                       C                    h
    du hast so gern herabgeschaut
                     C                    h
    dein Luftschloss nur auf Sand gebaut
                   e
    In der Wirklichkeit
    
    e
    F      e
    C      h
    C      h
    e
    
    F                          e
      Du hast die Zeichen ignoriert
    F                        e
      und dich dabei verspekuliert
    F                                  e
      Jetzt stehst du da und tust schockiert
                   C
    du traust dich nicht mehr vor die Tür
                 h                    e
    doch es gibt kein Alibi dafür
    
    e
    
                          e
    Du warst von dir sehr überzeugt
    davon, dass dir die Welt gehört
    du hast dich scheint's zu früh gefreut
    und dir nur alles selbst zerstört
                            F
    Jetzt macht die Zukunft dich verrückt
                         e
    es nützt dir nichts, dass du bereust
                            C                 h
    du weißt, es führt kein Weg zurück
                       C                 h
    ich grüße dich und wünsch dir Glück
                   e
    In der Wirklichkeit
    
    e
    
    transcribed by Nils Heuermann (mail@oemmes.net)

    Zurück


    Neuer Morgen (acoustic version)
    (von Elke K.)

    Kapo: 3.Bund
    
    Akkorde:
       am   F   e4   E    As   F(5)
    e---0---1---0----0----4----5-----
    h---1---1---0----0----4----6-----
    g---2---2---2----1----5----5-----
    D---2--*3---0----2----6---*7-----
    A--*0---3--*2---*2---*6----x-----
    E---0---1---0----0----4----x-----
    
    Anfangsriff           mit Wechselbass    Mittelteil
    -------0-------------|-------1---------|----------4-------
    -----1---1-----------|-----1---1-------|--------4---4-----
    ---2-------2-----2---|---2------2---2--|------5-------5---
    -------------0h2-----|-3---------------|----6-----------6-
    -0-------------------|------------3----|--6---------------
    ---------------------|-----------------|------------------
    Der Wechselbass startet mit den mit Sternchen versehenen Tönen
    
    am
    Wenn du mit Deiner Kraft am Ende bist
    
    und die Leere wie ein Spiegel ist
    F                  e4                 am
    Du bist allein und kommst nicht damit klar
    
    ...
               F                                 am
    und an ein neues Glück zu glauben, fällt dir schwer
                 F                               E
    Es kommt dir vor, als gäb' es keine Hoffnung mehr
    
    am
    Gib nicht auf - es kommt ein neuer Morgen
    F
    Lass es raus - den Schmerz und Deine Sorgen
    am
    Mach dich frei - von allen falschen Zwängen
    F
    Nimm dir Zeit - und lern dich selber kennen
    
    .......
    
    Mittelteil:
    As (2 Takte)    am (2 Takte)
    As am (ebenso)
    As am (ebenso)
    F(5) e4  

    Zurück


    Der Sturm
    (von Stefan H.)

    Kapo auf dem 1. Bund, D5 = x0023x
    
    Teil A:	E, e
    Teil B:	D5, E
    Teil C:	D, A, E, E
    Teil D:	D, A, G, A
    
    Intro:   4 x Teil A
    Verse 1: 4 x Teil A
             2 x Teil B
    Verse 2: 4 x Teil A
             2 x Teil B
    Bridge:	 D5
    Chorus:  4 x Teil A
             2 x Teil C
             1 x Teil D
    und     20 x Teil A

    Zurück


    Wir sind frei
    (von Alexander F.)

    ||:A      |A      |Em7    |Em7    |
       D      |D      |Fmaj7  |G     :||
    
        A
    Aus Sternenstaub und Teil des Meers
    
    Em7
        Ergebnis der Gezeiten
    
       D
    So kreisen wir schon länger hier
    
    Fmaj7                 G
        durch unbegrenzte Weiten
    
        A
    Wir suchen was, das es nicht gibt
    
    Em7
        seit ein paar Ewigkeiten
    
        D
    Für was mir fehlt, schreib ich ein Lied
    
    Fmaj7                  G
        und greif in meine Saiten
    
            F                     G            A
    Und die Zeit bleibt stehen in meiner Phantasie
    
              F             G         A          Asus4
    Bist du bereit für eine kleine Utopie?
    
    
    Refrain:
    
         A                      Em7
    Komm sag es allen: Wir sind frei
    
                       D
    Es gibt kein Müssen und kein Sollen
    
         Fmaj7           G
    wenn wir nicht wollen
    
        A                        Em7
    Die Zeit der Heuchler ist vorbei
    
                  D
    und ihre Tyrannei
    
         Fmaj7        G
    Denn wir sind frei
    
    
    |A      |A      |A      |A      |
    
    usw. usf.
    
    
    Die Träume enden in den Charts
    in denen eure Lieder
    Ein Höhenflug und dann: Das wars
    Die Erde hat euch wieder
    Ihr Sklaven in der Überzahl
    wie lang noch wollt ihr leiden
    Wer frei sein will, hat keine Wahl
    Wir müssen uns entscheiden
    Und manche sagen: Der Typ gehört in Therapie
    kann sein, doch um mich weht ein Hauch von Anarchie
    
    Komm sag es allen: Wir sind frei
    Es gibt kein Müssen und kein Sollen
    wenn wir nicht wollen
    Die Zeit der Heuchler ist vorbei
    und ihrer Barbarei
    Denn wir sind frei
    
    Aus Sternenstaub und Teil des Meers
    Ergebnis der Gezeiten
    so kreisen wir schon länger hier
    durch unbegrenzte Weiten
    
    Zurück


    Die Welt ist schön
    (von Martini Tyran)

    Strophe:
    
    C
    Die Nacht war lang
            C
    Ich fragte mich
    F		      C
    Wie soll es weitergehen
    C			C                 G                G
    Und dunkle Wolken zogen übers Meer
    C
    Ich saß nur da
            C
    Und tat sonst nichts
    F		          C
    Als nur die Wand ansehen
                     C             F       G           C            C
    Und der Fluss floss ruhig vor sich her
    
    
    Refrain:
    
    F                        F                      C           C
    Dann kam der Tag mit seinen Farben
    F               F                        C             C
    Er kam zu mir und er war neu
    F                       F     Em               F
    Und ich muss sagen, trotz aller Plagen:
                        C                         F               G     C         C
    Es geht mir gut. Die Welt ist schön. Ich lebe gern
    
    Zurück